  0
SECTION
  2
HEADER
  9
$ACADVER
  1
AC1009
  9
$DWGCODEPAGE
  3
ansi_1252
  9
$INSBASE
 10
0.0
 20
0.0
 30
0.0
  9
$EXTMIN
 10
-0.5
 20
-201.2403681011765
 30
0.0
  9
$EXTMAX
 10
800.5
 20
200.5
 30
0.0
  9
$LIMMIN
 10
0.0
 20
0.0
  9
$LIMMAX
 10
420.0
 20
297.0
  9
$ORTHOMODE
 70
     0
  9
$REGENMODE
 70
     1
  9
$FILLMODE
 70
     1
  9
$QTEXTMODE
 70
     0
  9
$MIRRTEXT
 70
     0
  9
$DRAGMODE
 70
     2
  9
$LTSCALE
 40
1.0
  9
$OSMODE
 70
    37
  9
$ATTMODE
 70
     1
  9
$TEXTSIZE
 40
15.0
  9
$TRACEWID
 40
1.0
  9
$TEXTSTYLE
  7
STANDARD
  9
$CLAYER
  8
0
  9
$CELTYPE
  6
BYLAYER
  9
$CECOLOR
 62
   256
  9
$DIMSCALE
 40
1.0
  9
$DIMASZ
 40
20.0
  9
$DIMEXO
 40
0.0625
  9
$DIMDLI
 40
0.38
  9
$DIMRND
 40
0.0
  9
$DIMDLE
 40
0.0
  9
$DIMEXE
 40
0.18
  9
$DIMTP
 40
0.0
  9
$DIMTM
 40
0.0
  9
$DIMTXT
 40
20.0
  9
$DIMCEN
 40
0.09
  9
$DIMTSZ
 40
0.0
  9
$DIMTOL
 70
     0
  9
$DIMLIM
 70
     0
  9
$DIMTIH
 70
     1
  9
$DIMTOH
 70
     1
  9
$DIMSE1
 70
     0
  9
$DIMSE2
 70
     0
  9
$DIMTAD
 70
     0
  9
$DIMZIN
 70
     0
  9
$DIMBLK
  1

  9
$DIMASO
 70
     1
  9
$DIMSHO
 70
     1
  9
$DIMPOST
  1

  9
$DIMAPOST
  1

  9
$DIMALT
 70
     0
  9
$DIMALTD
 70
     2
  9
$DIMALTF
 40
25.4
  9
$DIMLFAC
 40
1.0
  9
$DIMTOFL
 70
     0
  9
$DIMTVP
 40
0.0
  9
$DIMTIX
 70
     0
  9
$DIMSOXD
 70
     0
  9
$DIMSAH
 70
     0
  9
$DIMBLK1
  1

  9
$DIMBLK2
  1

  9
$DIMSTYLE
  2
STANDARD
  9
$DIMCLRD
 70
     0
  9
$DIMCLRE
 70
     0
  9
$DIMCLRT
 70
     0
  9
$DIMTFAC
 40
1.0
  9
$DIMGAP
 40
0.09
  9
$LUNITS
 70
     2
  9
$LUPREC
 70
     4
  9
$SKETCHINC
 40
1.0
  9
$FILLETRAD
 40
0.0
  9
$AUNITS
 70
     0
  9
$AUPREC
 70
     0
  9
$MENU
  1
.
  9
$ELEVATION
 40
0.0
  9
$PELEVATION
 40
0.0
  9
$THICKNESS
 40
0.0
  9
$LIMCHECK
 70
     0
  9
$CHAMFERA
 40
0.0
  9
$CHAMFERB
 40
0.0
  9
$SKPOLY
 70
     0
  9
$TDCREATE
 40
2453353.800459155
  9
$TDUPDATE
 40
2456079.12577
  9
$TDINDWG
 40
9763448.072853334
  9
$TDUSRTIMER
 40
2440862.049751111
  9
$USRTIMER
 70
     1
  9
$ANGBASE
 50
0.0
  9
$ANGDIR
 70
     0
  9
$PDMODE
 70
     0
  9
$PDSIZE
 40
0.0
  9
$PLINEWID
 40
0.0
  9
$COORDS
 70
     1
  9
$SPLFRAME
 70
     0
  9
$SPLINETYPE
 70
     6
  9
$SPLINESEGS
 70
     8
  9
$ATTDIA
 70
     0
  9
$ATTREQ
 70
     1
  9
$HANDLING
 70
     1
  9
$HANDSEED
  5
540
  9
$SURFTAB1
 70
     6
  9
$SURFTAB2
 70
     6
  9
$SURFTYPE
 70
     6
  9
$SURFU
 70
     6
  9
$SURFV
 70
     6
  9
$UCSNAME
  2

  9
$UCSORG
 10
0.0
 20
0.0
 30
0.0
  9
$UCSXDIR
 10
1.0
 20
0.0
 30
0.0
  9
$UCSYDIR
 10
0.0
 20
1.0
 30
0.0
  9
$PUCSNAME
  2

  9
$PUCSORG
 10
0.0
 20
0.0
 30
0.0
  9
$PUCSXDIR
 10
1.0
 20
0.0
 30
0.0
  9
$PUCSYDIR
 10
0.0
 20
1.0
 30
0.0
  9
$USERI1
 70
     0
  9
$USERI2
 70
     0
  9
$USERI3
 70
     0
  9
$USERI4
 70
     0
  9
$USERI5
 70
     0
  9
$USERR1
 40
0.0
  9
$USERR2
 40
0.0
  9
$USERR3
 40
0.0
  9
$USERR4
 40
0.0
  9
$USERR5
 40
0.0
  9
$WORLDVIEW
 70
     1
  9
$SHADEDGE
 70
     3
  9
$SHADEDIF
 70
    70
  9
$TILEMODE
 70
     1
  9
$MAXACTVP
 70
    64
  9
$PLIMCHECK
 70
     0
  9
$PEXTMIN
 10
0.0
 20
0.0
 30
0.0
  9
$PEXTMAX
 10
0.0
 20
0.0
 30
0.0
  9
$PLIMMIN
 10
0.0
 20
0.0
  9
$PLIMMAX
 10
12.0
 20
9.0
  9
$UNITMODE
 70
     0
  9
$VISRETAIN
 70
     1
  9
$PLINEGEN
 70
     0
  9
$PSLTSCALE
 70
     1
  0
ENDSEC
  0
SECTION
  2
TABLES
  0
TABLE
  2
VPORT
 70
     1
  0
VPORT
  2
*ACTIVE
 70
     0
 10
0.0
 20
0.0
 11
1.0
 21
1.0
 12
439.3389680124681
 22
93.08515207660531
 13
0.0
 23
0.0
 14
0.5
 24
0.5
 15
0.5
 25
0.5
 16
0.0
 26
0.0
 36
1.0
 17
0.0
 27
0.0
 37
0.0
 40
1503.667098346412
 41
1.333333333333333
 42
50.0
 43
0.0
 44
0.0
 50
0.0
 51
0.0
 71
    16
 72
   100
 73
     0
 74
     1
 75
     0
 76
     0
 77
     0
 78
     0
  0
ENDTAB
  0
TABLE
  2
LTYPE
 70
     1
  0
LTYPE
  2
CONTINUOUS
 70
     0
  3
CONTINUOUS
 72
    65
 73
     0
 40
0.0
  0
ENDTAB
  0
TABLE
  2
LAYER
 70
     1
  0
LAYER
  2
0
 70
     0
 62
     7
  6
CONTINUOUS
  0
ENDTAB
  0
TABLE
  2
STYLE
 70
     1
  0
STYLE
  2
STANDARD
 70
     0
 40
0.0
 41
1.0
 50
0.0
 71
     0
 42
2.5
  3
txt
  4

  0
ENDTAB
  0
TABLE
  2
VIEW
 70
     0
  0
ENDTAB
  0
TABLE
  2
UCS
 70
     0
  0
ENDTAB
  0
TABLE
  2
APPID
 70
     1
  0
APPID
  2
ACAD
 70
     0
  0
ENDTAB
  0
TABLE
  2
DIMSTYLE
 70
     1
  0
DIMSTYLE
  2
STANDARD
 70
     0
  3

  4

  5

  6

  7

 40
1.0
 41
0.18
 42
0.0625
 43
0.38
 44
0.18
 45
0.0
 46
0.0
 47
0.0
 48
0.0
140
0.18
141
0.09
142
0.0
143
25.4
144
1.0
145
0.0
146
1.0
147
0.09
 71
     0
 72
     0
 73
     1
 74
     1
 75
     0
 76
     0
 77
     0
 78
     0
170
     0
171
     2
172
     0
173
     0
174
     0
175
     0
176
     0
177
     0
178
     0
  0
ENDTAB
  0
ENDSEC
  0
SECTION
  2
BLOCKS
  0
BLOCK
  8
0
  2
$MODEL_SPACE
 70
     0
 10
0.0
 20
0.0
 30
0.0
  3
$MODEL_SPACE
  1

  0
ENDBLK
  5
21
  8
0
  0
BLOCK
 67
     1
  8
0
  2
$PAPER_SPACE
 70
     0
 10
0.0
 20
0.0
 30
0.0
  3
$PAPER_SPACE
  1

  0
ENDBLK
  5
76
 67
     1
  8
0
  0
BLOCK
  8
0
  2
*D1
 70
     1
 10
0.0
 20
0.0
 30
0.0
  3
*D1
  1

  0
LINE
  5
2D3
  8
0
  6
BYBLOCK
 62
     0
 10
54.67183866881786
 20
110.2106851314964
 30
0.0
 11
81.13860614542512
 21
110.2106851314964
 31
0.0
  0
LINE
  5
2D4
  8
0
  6
BYBLOCK
 62
     0
 10
55.59475893583951
 20
20.21068513149639
 30
0.0
 11
81.13860614542512
 21
20.21068513149639
 31
0.0
  0
LINE
  5
2D5
  8
0
  6
BYBLOCK
 62
     0
 10
79.88860614542512
 20
107.7106851314964
 30
0.0
 11
79.88860614542512
 21
22.71068513149639
 31
0.0
  0
SOLID
  5
2D6
  8
0
  6
BYBLOCK
 62
     0
 10
79.88860614542512
 20
110.2106851314964
 30
0.0
 11
79.47193947875837
 21
107.7106851314964
 31
0.0
 12
80.30527281209186
 22
107.7106851314964
 32
0.0
 13
80.30527281209186
 23
107.7106851314964
 33
0.0
  0
SOLID
  5
2D7
  8
0
  6
BYBLOCK
 62
     0
 10
79.88860614542512
 20
20.21068513149639
 30
0.0
 11
79.47193947875837
 21
22.71068513149639
 31
0.0
 12
80.30527281209186
 22
22.71068513149639
 32
0.0
 13
80.30527281209186
 23
22.71068513149639
 33
0.0
  0
TEXT
  5
2D8
  8
0
  6
BYBLOCK
 62
     0
 10
79.26360614542513
 20
42.71068513149639
 30
0.0
 40
30.0
  1
90
 50
90.0
  0
ENDBLK
  5
4F8
  8
0
  0
BLOCK
  8
0
  2
*D2
 70
     1
 10
0.0
 20
0.0
 30
0.0
  3
*D2
  1

  0
LINE
  5
322
  8
0
  6
BYBLOCK
 62
     0
 10
-390.1072259619581
 20
250.5990590174879
 30
0.0
 11
-570.2829007351955
 21
250.5990590174879
 31
0.0
  0
LINE
  5
323
  8
0
  6
BYBLOCK
 62
     0
 10
-390.8712713865251
 20
110.2106851314964
 30
0.0
 11
-570.2829007351955
 21
110.2106851314964
 31
0.0
  0
LINE
  5
324
  8
0
  6
BYBLOCK
 62
     0
 10
-569.0329007351955
 20
248.0990590174879
 30
0.0
 11
-569.0329007351955
 21
112.7106851314964
 31
0.0
  0
SOLID
  5
325
  8
0
  6
BYBLOCK
 62
     0
 10
-569.0329007351955
 20
250.5990590174879
 30
0.0
 11
-569.4495674018623
 21
248.0990590174879
 31
0.0
 12
-568.6162340685288
 22
248.0990590174879
 32
0.0
 13
-568.6162340685288
 23
248.0990590174879
 33
0.0
  0
LINE
  5
326
  8
0
  6
BYBLOCK
 62
     0
 10
-569.0329007351955
 20
110.2106851314964
 30
0.0
 11
-569.0329007351955
 21
71.36068513149638
 31
0.0
  0
SOLID
  5
327
  8
0
  6
BYBLOCK
 62
     0
 10
-569.0329007351955
 20
110.2106851314964
 30
0.0
 11
-569.4495674018623
 21
112.7106851314964
 31
0.0
 12
-568.6162340685288
 22
112.7106851314964
 32
0.0
 13
-568.6162340685288
 23
112.7106851314964
 33
0.0
  0
TEXT
  5
328
  8
0
  6
BYBLOCK
 62
     0
 10
-574.7579007351956
 20
19.48568513149644
 30
0.0
 40
30.0
  1
140,39
 50
90.0
  0
ENDBLK
  5
4FA
  8
0
  0
BLOCK
  8
0
  2
*D3
 70
     1
 10
0.0
 20
0.0
 30
0.0
  3
*D3
  1

  0
LINE
  5
32F
  8
0
  6
BYBLOCK
 62
     0
 10
-390.1072259619581
 20
250.5990590174879
 30
0.0
 11
-570.2829007351955
 21
250.5990590174879
 31
0.0
  0
LINE
  5
330
  8
0
  6
BYBLOCK
 62
     0
 10
-390.8712713865251
 20
110.2106851314964
 30
0.0
 11
-570.2829007351955
 21
110.2106851314964
 31
0.0
  0
LINE
  5
331
  8
0
  6
BYBLOCK
 62
     0
 10
-569.0329007351955
 20
248.0990590174879
 30
0.0
 11
-569.0329007351955
 21
112.7106851314964
 31
0.0
  0
SOLID
  5
332
  8
0
  6
BYBLOCK
 62
     0
 10
-569.0329007351955
 20
250.5990590174879
 30
0.0
 11
-569.4495674018623
 21
248.0990590174879
 31
0.0
 12
-568.6162340685288
 22
248.0990590174879
 32
0.0
 13
-568.6162340685288
 23
248.0990590174879
 33
0.0
  0
LINE
  5
333
  8
0
  6
BYBLOCK
 62
     0
 10
-569.0329007351955
 20
110.2106851314964
 30
0.0
 11
-569.0329007351955
 21
71.36068513149638
 31
0.0
  0
SOLID
  5
334
  8
0
  6
BYBLOCK
 62
     0
 10
-569.0329007351955
 20
110.2106851314964
 30
0.0
 11
-569.4495674018623
 21
112.7106851314964
 31
0.0
 12
-568.6162340685288
 22
112.7106851314964
 32
0.0
 13
-568.6162340685288
 23
112.7106851314964
 33
0.0
  0
TEXT
  5
335
  8
0
  6
BYBLOCK
 62
     0
 10
-574.7579007351956
 20
19.48568513149644
 30
0.0
 40
30.0
  1
140,39
 50
90.0
  0
ENDBLK
  5
4FC
  8
0
  0
BLOCK
  8
0
  2
*D4
 70
     1
 10
0.0
 20
0.0
 30
0.0
  3
*D4
  1

  0
LINE
  5
33C
  8
0
  6
BYBLOCK
 62
     0
 10
-44.1163119344391
 20
250.2731851314965
 30
0.0
 11
-44.1163119344391
 21
335.4822322174582
 31
0.0
  0
LINE
  5
33D
  8
0
  6
BYBLOCK
 62
     0
 10
205.8836880655609
 20
250.2731851314964
 30
0.0
 11
205.8836880655609
 21
335.4822322174582
 31
0.0
  0
LINE
  5
33E
  8
0
  6
BYBLOCK
 62
     0
 10
-43.9363119344391
 20
335.3022322174581
 30
0.0
 11
80.2248880655609
 21
335.3022322174581
 31
0.0
  0
SOLID
  5
33F
  8
0
  6
BYBLOCK
 62
     0
 10
-44.1163119344391
 20
335.3022322174581
 30
0.0
 11
-43.9363119344391
 21
335.2722322174582
 31
0.0
 12
-43.9363119344391
 22
335.3322322174581
 32
0.0
 13
-43.9363119344391
 23
335.3322322174581
 33
0.0
  0
LINE
  5
340
  8
0
  6
BYBLOCK
 62
     0
 10
205.7036880655609
 20
335.3022322174581
 30
0.0
 11
81.5424880655609
 21
335.3022322174581
 31
0.0
  0
SOLID
  5
341
  8
0
  6
BYBLOCK
 62
     0
 10
205.8836880655609
 20
335.3022322174581
 30
0.0
 11
205.7036880655609
 21
335.2722322174582
 31
0.0
 12
205.7036880655609
 22
335.3322322174581
 32
0.0
 13
205.7036880655609
 23
335.3322322174581
 33
0.0
  0
TEXT
  5
342
  8
0
  6
BYBLOCK
 62
     0
 10
80.31488806556091
 20
335.2275322174581
 30
0.0
 40
0.18
  1
250,0000
  0
ENDBLK
  5
4FE
  8
0
  0
BLOCK
  8
0
  2
*D5
 70
     1
 10
0.0
 20
0.0
 30
0.0
  3
*D5
  1

  0
LINE
  5
349
  8
0
  6
BYBLOCK
 62
     0
 10
-44.1163119344391
 20
250.2731851314965
 30
0.0
 11
-44.1163119344391
 21
337.0103230665921
 31
0.0
  0
LINE
  5
34A
  8
0
  6
BYBLOCK
 62
     0
 10
205.8836880655609
 20
250.2731851314964
 30
0.0
 11
205.8836880655609
 21
337.0103230665921
 31
0.0
  0
LINE
  5
34B
  8
0
  6
BYBLOCK
 62
     0
 10
-43.9363119344391
 20
336.8303230665921
 30
0.0
 11
80.2248880655609
 21
336.8303230665921
 31
0.0
  0
SOLID
  5
34C
  8
0
  6
BYBLOCK
 62
     0
 10
-44.1163119344391
 20
336.8303230665921
 30
0.0
 11
-43.9363119344391
 21
336.8003230665921
 31
0.0
 12
-43.9363119344391
 22
336.8603230665921
 32
0.0
 13
-43.9363119344391
 23
336.8603230665921
 33
0.0
  0
LINE
  5
34D
  8
0
  6
BYBLOCK
 62
     0
 10
205.7036880655609
 20
336.8303230665921
 30
0.0
 11
81.5424880655609
 21
336.8303230665921
 31
0.0
  0
SOLID
  5
34E
  8
0
  6
BYBLOCK
 62
     0
 10
205.8836880655609
 20
336.8303230665921
 30
0.0
 11
205.7036880655609
 21
336.8003230665921
 31
0.0
 12
205.7036880655609
 22
336.8603230665921
 32
0.0
 13
205.7036880655609
 23
336.8603230665921
 33
0.0
  0
TEXT
  5
34F
  8
0
  6
BYBLOCK
 62
     0
 10
80.31488806556091
 20
336.7556230665921
 30
0.0
 40
0.18
  1
250,0000
  0
ENDBLK
  5
500
  8
0
  0
BLOCK
  8
0
  2
*D6
 70
     1
 10
0.0
 20
0.0
 30
0.0
  3
*D6
  1

  0
LINE
  5
356
  8
0
  6
BYBLOCK
 62
     0
 10
-395.5567600683994
 20
250.5990590174879
 30
0.0
 11
-617.6707946120287
 21
250.5990590174879
 31
0.0
  0
LINE
  5
357
  8
0
  6
BYBLOCK
 62
     0
 10
-393.6008434644908
 20
110.2106851314964
 30
0.0
 11
-617.6707946120287
 21
110.2106851314964
 31
0.0
  0
LINE
  5
358
  8
0
  6
BYBLOCK
 62
     0
 10
-617.4907946120287
 20
230.5990590174879
 30
0.0
 11
-617.4907946120287
 21
190.4948720744922
 31
0.0
  0
SOLID
  5
359
  8
0
  6
BYBLOCK
 62
     0
 10
-617.4907946120287
 20
250.5990590174879
 30
0.0
 11
-620.8241279453628
 21
230.5990590174879
 31
0.0
 12
-614.1574612786947
 22
230.5990590174879
 32
0.0
 13
-614.1574612786947
 23
230.5990590174879
 33
0.0
  0
LINE
  5
35A
  8
0
  6
BYBLOCK
 62
     0
 10
-617.4907946120287
 20
130.2106851314964
 30
0.0
 11
-617.4907946120287
 21
170.3148720744921
 31
0.0
  0
SOLID
  5
35B
  8
0
  6
BYBLOCK
 62
     0
 10
-617.4907946120287
 20
110.2106851314964
 30
0.0
 11
-620.8241279453628
 21
130.2106851314964
 31
0.0
 12
-614.1574612786947
 22
130.2106851314964
 32
0.0
 13
-614.1574612786947
 23
130.2106851314964
 33
0.0
  0
TEXT
  5
35C
  8
0
  6
BYBLOCK
 62
     0
 10
-639.1907946120288
 20
170.4048720744922
 30
0.0
 40
20.0
  1
140
  0
ENDBLK
  5
502
  8
0
  0
BLOCK
  8
0
  2
*D7
 70
     1
 10
0.0
 20
0.0
 30
0.0
  3
*D7
  1

  0
LINE
  5
363
  8
0
  6
BYBLOCK
 62
     0
 10
-44.1163119344391
 20
250.2731851314965
 30
0.0
 11
-44.1163119344391
 21
353.7147624220485
 31
0.0
  0
LINE
  5
364
  8
0
  6
BYBLOCK
 62
     0
 10
205.8836880655609
 20
246.788997619959
 30
0.0
 11
205.8836880655609
 21
353.7147624220485
 31
0.0
  0
LINE
  5
365
  8
0
  6
BYBLOCK
 62
     0
 10
-24.1163119344391
 20
353.5347624220485
 30
0.0
 11
55.7936880655609
 21
353.5347624220485
 31
0.0
  0
SOLID
  5
366
  8
0
  6
BYBLOCK
 62
     0
 10
-44.1163119344391
 20
353.5347624220485
 30
0.0
 11
-24.1163119344391
 21
350.2014290887145
 31
0.0
 12
-24.1163119344391
 22
356.8680957553825
 32
0.0
 13
-24.1163119344391
 23
356.8680957553825
 33
0.0
  0
LINE
  5
367
  8
0
  6
BYBLOCK
 62
     0
 10
185.8836880655609
 20
353.5347624220485
 30
0.0
 11
105.9736880655609
 21
353.5347624220485
 31
0.0
  0
SOLID
  5
368
  8
0
  6
BYBLOCK
 62
     0
 10
205.8836880655609
 20
353.5347624220485
 30
0.0
 11
185.8836880655609
 21
350.2014290887145
 31
0.0
 12
185.8836880655609
 22
356.8680957553825
 32
0.0
 13
185.8836880655609
 23
356.8680957553825
 33
0.0
  0
TEXT
  5
369
  8
0
  6
BYBLOCK
 62
     0
 10
55.8836880655609
 20
343.5347624220485
 30
0.0
 40
20.0
  1
250
  0
ENDBLK
  5
504
  8
0
  0
BLOCK
  8
0
  2
*D8
 70
     1
 10
0.0
 20
0.0
 30
0.0
  3
*D8
  1

  0
LINE
  5
370
  8
0
  6
BYBLOCK
 62
     0
 10
205.9461880655609
 20
250.2106851314964
 30
0.0
 11
377.1779963952173
 21
250.2106851314964
 31
0.0
  0
LINE
  5
371
  8
0
  6
BYBLOCK
 62
     0
 10
205.9461880655609
 20
177.2106851314964
 30
0.0
 11
377.1779963952173
 21
177.2106851314964
 31
0.0
  0
LINE
  5
372
  8
0
  6
BYBLOCK
 62
     0
 10
376.9979963952173
 20
230.2106851314964
 30
0.0
 11
376.9979963952173
 21
223.8006851314964
 31
0.0
  0
SOLID
  5
373
  8
0
  6
BYBLOCK
 62
     0
 10
376.9979963952173
 20
250.2106851314964
 30
0.0
 11
373.6646630618833
 21
230.2106851314964
 31
0.0
 12
380.3313297285513
 22
230.2106851314964
 32
0.0
 13
380.3313297285513
 23
230.2106851314964
 33
0.0
  0
LINE
  5
374
  8
0
  6
BYBLOCK
 62
     0
 10
376.9979963952173
 20
197.2106851314964
 30
0.0
 11
376.9979963952173
 21
203.6206851314964
 31
0.0
  0
SOLID
  5
375
  8
0
  6
BYBLOCK
 62
     0
 10
376.9979963952173
 20
177.2106851314964
 30
0.0
 11
373.6646630618833
 21
197.2106851314964
 31
0.0
 12
380.3313297285513
 22
197.2106851314964
 32
0.0
 13
380.3313297285513
 23
197.2106851314964
 33
0.0
  0
TEXT
  5
376
  8
0
  6
BYBLOCK
 62
     0
 10
360.2979963952173
 20
203.7106851314964
 30
0.0
 40
20.0
  1
73
  0
ENDBLK
  5
506
  8
0
  0
BLOCK
  8
0
  2
*D9
 70
     1
 10
0.0
 20
0.0
 30
0.0
  3
*D9
  1

  0
LINE
  5
37D
  8
0
  6
BYBLOCK
 62
     0
 10
205.9461880655609
 20
177.2106851314964
 30
0.0
 11
420.8368491610349
 21
177.2106851314964
 31
0.0
  0
LINE
  5
37E
  8
0
  6
BYBLOCK
 62
     0
 10
205.9461880655609
 20
310.2106851314964
 30
0.0
 11
420.8368491610349
 21
310.2106851314964
 31
0.0
  0
LINE
  5
37F
  8
0
  6
BYBLOCK
 62
     0
 10
420.6568491610349
 20
197.2106851314964
 30
0.0
 11
420.6568491610349
 21
233.6206851314964
 31
0.0
  0
SOLID
  5
380
  8
0
  6
BYBLOCK
 62
     0
 10
420.6568491610349
 20
177.2106851314964
 30
0.0
 11
423.9901824943689
 21
197.2106851314964
 31
0.0
 12
417.3235158277009
 22
197.2106851314964
 32
0.0
 13
417.3235158277009
 23
197.2106851314964
 33
0.0
  0
LINE
  5
381
  8
0
  6
BYBLOCK
 62
     0
 10
420.6568491610349
 20
290.2106851314964
 30
0.0
 11
420.6568491610349
 21
253.8006851314964
 31
0.0
  0
SOLID
  5
382
  8
0
  6
BYBLOCK
 62
     0
 10
420.6568491610349
 20
310.2106851314964
 30
0.0
 11
423.9901824943689
 21
290.2106851314964
 31
0.0
 12
417.3235158277009
 22
290.2106851314964
 32
0.0
 13
417.3235158277009
 23
290.2106851314964
 33
0.0
  0
TEXT
  5
383
  8
0
  6
BYBLOCK
 62
     0
 10
397.2568491610349
 20
233.7106851314964
 30
0.0
 40
20.0
  1
133
  0
ENDBLK
  5
508
  8
0
  0
BLOCK
  8
0
  2
*D10
 70
     1
 10
0.0
 20
0.0
 30
0.0
  3
*D10
  1

  0
LINE
  5
390
  8
0
  6
BYBLOCK
 62
     0
 10
-437.5157178895099
 20
214.5990590174879
 30
0.0
 11
-566.2722974151905
 21
214.5990590174879
 31
0.0
  0
LINE
  5
391
  8
0
  6
BYBLOCK
 62
     0
 10
-438.138898598391
 20
119.3515539151903
 30
0.0
 11
-566.2722974151905
 21
119.3515539151903
 31
0.0
  0
LINE
  5
392
  8
0
  6
BYBLOCK
 62
     0
 10
-566.0922974151905
 20
194.5990590174879
 30
0.0
 11
-566.0922974151905
 21
177.0653064663391
 31
0.0
  0
SOLID
  5
393
  8
0
  6
BYBLOCK
 62
     0
 10
-566.0922974151905
 20
214.5990590174879
 30
0.0
 11
-569.4256307485246
 21
194.5990590174879
 31
0.0
 12
-562.7589640818565
 22
194.5990590174879
 32
0.0
 13
-562.7589640818565
 23
194.5990590174879
 33
0.0
  0
LINE
  5
394
  8
0
  6
BYBLOCK
 62
     0
 10
-566.0922974151905
 20
139.3515539151903
 30
0.0
 11
-566.0922974151905
 21
156.8853064663391
 31
0.0
  0
SOLID
  5
395
  8
0
  6
BYBLOCK
 62
     0
 10
-566.0922974151905
 20
119.3515539151903
 30
0.0
 11
-569.4256307485246
 21
139.3515539151903
 31
0.0
 12
-562.7589640818565
 22
139.3515539151903
 32
0.0
 13
-562.7589640818565
 23
139.3515539151903
 33
0.0
  0
TEXT
  5
396
  8
0
  6
BYBLOCK
 62
     0
 10
-582.7922974151906
 20
156.9753064663391
 30
0.0
 40
20.0
  1
95
  0
ENDBLK
  5
50A
  8
0
  0
BLOCK
  8
0
  2
*D11
 70
     1
 10
0.0
 20
0.0
 30
0.0
  3
*D11
  1

  0
LINE
  5
39D
  8
0
  6
BYBLOCK
 62
     0
 10
-377.855850767724
 20
214.6615590174879
 30
0.0
 11
-377.855850767724
 21
338.7027307907992
 31
0.0
  0
LINE
  5
39E
  8
0
  6
BYBLOCK
 62
     0
 10
-454.4135940028669
 20
214.6615590174879
 30
0.0
 11
-454.4135940028669
 21
338.7027307907992
 31
0.0
  0
LINE
  5
39F
  8
0
  6
BYBLOCK
 62
     0
 10
-397.855850767724
 20
338.5227307907992
 30
0.0
 11
-399.3447223852955
 21
338.5227307907992
 31
0.0
  0
SOLID
  5
3A0
  8
0
  6
BYBLOCK
 62
     0
 10
-377.855850767724
 20
338.5227307907992
 30
0.0
 11
-397.855850767724
 21
341.8560641241332
 31
0.0
 12
-397.855850767724
 22
335.1893974574652
 32
0.0
 13
-397.855850767724
 23
335.1893974574652
 33
0.0
  0
LINE
  5
3A1
  8
0
  6
BYBLOCK
 62
     0
 10
-434.4135940028669
 20
338.5227307907992
 30
0.0
 11
-432.9247223852955
 21
338.5227307907992
 31
0.0
  0
SOLID
  5
3A2
  8
0
  6
BYBLOCK
 62
     0
 10
-454.4135940028669
 20
338.5227307907992
 30
0.0
 11
-434.4135940028669
 21
341.8560641241332
 31
0.0
 12
-434.4135940028669
 22
335.1893974574652
 32
0.0
 13
-434.4135940028669
 23
335.1893974574652
 33
0.0
  0
TEXT
  5
3A3
  8
0
  6
BYBLOCK
 62
     0
 10
-432.8347223852954
 20
328.5227307907992
 30
0.0
 40
20.0
  1
77
  0
ENDBLK
  5
50C
  8
0
  0
BLOCK
  8
0
  2
*D12
 70
     1
 10
0.0
 20
0.0
 30
0.0
  3
*D12
  1

  0
LINE
  5
3AA
  8
0
  6
BYBLOCK
 62
     0
 10
-349.4532178895099
 20
214.6615590174879
 30
0.0
 11
-349.4532178895099
 21
266.87574530633
 31
0.0
  0
LINE
  5
3AB
  8
0
  6
BYBLOCK
 62
     0
 10
-454.4135940028669
 20
214.6615590174879
 30
0.0
 11
-454.4135940028669
 21
266.87574530633
 31
0.0
  0
LINE
  5
3AC
  8
0
  6
BYBLOCK
 62
     0
 10
-369.4532178895099
 20
266.69574530633
 30
0.0
 11
-380.1434059461884
 21
266.69574530633
 31
0.0
  0
SOLID
  5
3AD
  8
0
  6
BYBLOCK
 62
     0
 10
-349.4532178895099
 20
266.69574530633
 30
0.0
 11
-369.4532178895099
 21
270.029078639664
 31
0.0
 12
-369.4532178895099
 22
263.362411972996
 32
0.0
 13
-369.4532178895099
 23
263.362411972996
 33
0.0
  0
LINE
  5
3AE
  8
0
  6
BYBLOCK
 62
     0
 10
-434.4135940028669
 20
266.69574530633
 30
0.0
 11
-423.7234059461885
 21
266.69574530633
 31
0.0
  0
SOLID
  5
3AF
  8
0
  6
BYBLOCK
 62
     0
 10
-454.4135940028669
 20
266.69574530633
 30
0.0
 11
-434.4135940028669
 21
270.029078639664
 31
0.0
 12
-434.4135940028669
 22
263.362411972996
 32
0.0
 13
-434.4135940028669
 23
263.362411972996
 33
0.0
  0
TEXT
  5
3B0
  8
0
  6
BYBLOCK
 62
     0
 10
-423.6334059461884
 20
256.69574530633
 30
0.0
 40
20.0
  1
105
  0
ENDBLK
  5
50E
  8
0
  0
BLOCK
  8
0
  2
*D13
 70
     1
 10
0.0
 20
0.0
 30
0.0
  3
*D13
  1

  0
LINE
  5
3EE
  8
0
  6
BYBLOCK
 62
     0
 10
-434.4532178895099
 20
220.5990590174879
 30
0.0
 11
-563.2097974151905
 21
220.5990590174879
 31
0.0
  0
LINE
  5
3EF
  8
0
  6
BYBLOCK
 62
     0
 10
-435.076398598391
 20
125.3515539151903
 30
0.0
 11
-563.2097974151905
 21
125.3515539151903
 31
0.0
  0
LINE
  5
3F0
  8
0
  6
BYBLOCK
 62
     0
 10
-563.0297974151905
 20
200.5990590174879
 30
0.0
 11
-563.0297974151905
 21
183.0653064663391
 31
0.0
  0
SOLID
  5
3F1
  8
0
  6
BYBLOCK
 62
     0
 10
-563.0297974151905
 20
220.5990590174879
 30
0.0
 11
-566.3631307485246
 21
200.5990590174879
 31
0.0
 12
-559.6964640818565
 22
200.5990590174879
 32
0.0
 13
-559.6964640818565
 23
200.5990590174879
 33
0.0
  0
LINE
  5
3F2
  8
0
  6
BYBLOCK
 62
     0
 10
-563.0297974151905
 20
145.3515539151903
 30
0.0
 11
-563.0297974151905
 21
162.8853064663391
 31
0.0
  0
SOLID
  5
3F3
  8
0
  6
BYBLOCK
 62
     0
 10
-563.0297974151905
 20
125.3515539151903
 30
0.0
 11
-566.3631307485246
 21
145.3515539151903
 31
0.0
 12
-559.6964640818565
 22
145.3515539151903
 32
0.0
 13
-559.6964640818565
 23
145.3515539151903
 33
0.0
  0
TEXT
  5
3F4
  8
0
  6
BYBLOCK
 62
     0
 10
-579.7297974151906
 20
162.9753064663391
 30
0.0
 40
20.0
  1
95
  0
ENDBLK
  5
510
  8
0
  0
BLOCK
  8
0
  2
*D14
 70
     1
 10
0.0
 20
0.0
 30
0.0
  3
*D14
  1

  0
LINE
  5
3FB
  8
0
  6
BYBLOCK
 62
     0
 10
206.1989883538294
 20
244.2106851314964
 30
0.0
 11
298.1599761647671
 21
244.2106851314964
 31
0.0
  0
LINE
  5
3FC
  8
0
  6
BYBLOCK
 62
     0
 10
205.9461880655609
 20
290.2106851314964
 30
0.0
 11
298.1599761647671
 21
290.2106851314964
 31
0.0
  0
LINE
  5
3FD
  8
0
  6
BYBLOCK
 62
     0
 10
298.0974761647671
 20
224.2106851314964
 30
0.0
 11
298.0974761647671
 21
204.2106851314964
 31
0.0
  0
SOLID
  5
3FE
  8
0
  6
BYBLOCK
 62
     0
 10
298.0974761647671
 20
244.2106851314964
 30
0.0
 11
301.4308094981011
 21
224.2106851314964
 31
0.0
 12
294.7641428314331
 22
224.2106851314964
 32
0.0
 13
294.7641428314331
 23
224.2106851314964
 33
0.0
  0
LINE
  5
3FF
  8
0
  6
BYBLOCK
 62
     0
 10
298.0974761647671
 20
310.2106851314964
 30
0.0
 11
298.0974761647671
 21
330.2106851314964
 31
0.0
  0
SOLID
  5
400
  8
0
  6
BYBLOCK
 62
     0
 10
298.0974761647671
 20
290.2106851314964
 30
0.0
 11
301.4308094981011
 21
310.2106851314964
 31
0.0
 12
294.7641428314331
 22
310.2106851314964
 32
0.0
 13
294.7641428314331
 23
310.2106851314964
 33
0.0
  0
LINE
  5
401
  8
0
  6
BYBLOCK
 62
     0
 10
298.0974761647671
 20
330.2106851314964
 30
0.0
 11
318.0974761647671
 21
330.2106851314964
 31
0.0
  0
TEXT
  5
402
  8
0
  6
BYBLOCK
 62
     0
 10
318.1874761647671
 20
320.2106851314964
 30
0.0
 40
20.0
  1
46
  0
ENDBLK
  5
512
  8
0
  0
BLOCK
  8
0
  2
*D15
 70
     1
 10
0.0
 20
0.0
 30
0.0
  3
*D15
  1

  0
LINE
  5
42D
  8
0
  6
BYBLOCK
 62
     0
 10
-237.6158636783427
 20
135.7115061086301
 30
0.0
 11
-228.9523904824601
 21
137.1949302391403
 31
0.0
  0
LINE
  5
42E
  8
0
  6
BYBLOCK
 62
     0
 10
-234.5972706719457
 20
118.0823607668958
 30
0.0
 11
-225.933797476063
 21
119.5657848974059
 31
0.0
  0
LINE
  5
42F
  8
0
  6
BYBLOCK
 62
     0
 10
-232.3894179862346
 20
156.8974871338252
 30
0.0
 11
-235.7648420365877
 21
176.6105922286675
 31
0.0
  0
SOLID
  5
430
  8
0
  6
BYBLOCK
 62
     0
 10
-229.0139939358814
 20
137.1843820389829
 30
0.0
 11
-235.6749355020423
 21
156.3349164587663
 31
0.0
 12
-229.1039004704269
 22
157.4600578088842
 32
0.0
 13
-229.1039004704269
 23
157.4600578088842
 33
0.0
  0
LINE
  5
431
  8
0
  6
BYBLOCK
 62
     0
 10
-222.6199768791313
 20
99.84213160240627
 30
0.0
 11
-219.2445528287782
 21
80.12902650756396
 31
0.0
  0
SOLID
  5
432
  8
0
  6
BYBLOCK
 62
     0
 10
-225.9954009294844
 20
119.5552366972486
 30
0.0
 11
-225.905494394939
 21
99.27956092734731
 31
0.0
 12
-219.3344593633236
 22
100.4047022774652
 32
0.0
 13
-219.3344593633236
 23
100.4047022774652
 33
0.0
  0
LINE
  5
433
  8
0
  6
BYBLOCK
 62
     0
 10
-219.2445528287782
 20
80.12902650756396
 30
0.0
 11
-199.2445528287782
 21
80.12902650757636
 31
0.0
  0
TEXT
  5
434
  8
0
  6
BYBLOCK
 62
     0
 10
-199.1545528287782
 20
70.12902650758471
 30
0.0
 40
20.0
  1
18
  0
ENDBLK
  5
514
  8
0
  0
BLOCK
  8
0
  2
NRE-302
 70
     0
 10
0.0
 20
0.0
 30
0.0
  3
NRE-302
  1

  0
POLYLINE
  5
4DD
  8
0
 66
     1
 10
0.0
 20
0.0
 30
0.0
 40
9.0
 41
9.0
  0
VERTEX
  5
521
  8
0
 10
0.0
 20
0.0
 30
0.0
  0
VERTEX
  5
522
  8
0
 10
800.0
 20
0.0
 30
0.0
  0
SEQEND
  5
520
  8
0
  0
POLYLINE
  5
4DE
  8
0
 66
     1
 10
0.0
 20
0.0
 30
0.0
 40
1.0
 41
1.0
  0
VERTEX
  5
524
  8
0
 10
0.0
 20
0.0
 30
0.0
  0
VERTEX
  5
525
  8
0
 10
0.0
 20
200.0
 30
0.0
  0
VERTEX
  5
526
  8
0
 10
800.0
 20
200.0
 30
0.0
  0
VERTEX
  5
527
  8
0
 10
800.0
 20
-200.0
 30
0.0
  0
VERTEX
  5
528
  8
0
 10
0.0
 20
-200.0
 30
0.0
  0
VERTEX
  5
529
  8
0
 10
0.0
 20
0.0
 30
0.0
  0
SEQEND
  5
523
  8
0
  0
POLYLINE
  5
4DF
  8
0
 66
     1
 10
0.0
 20
0.0
 30
0.0
 40
9.0
 41
9.0
  0
VERTEX
  5
52B
  8
0
 10
400.0
 20
-200.0
 30
0.0
 42
0.2866209618372616
  0
VERTEX
  5
52C
  8
0
 10
203.2098436019819
 20
-22.72739184699698
 30
0.0
 42
3.488928351889984
  0
SEQEND
  5
52A
  8
0
  0
POLYLINE
  5
4E0
  8
0
 66
     1
 10
0.0
 20
0.0
 30
0.0
 40
9.0
 41
9.0
  0
VERTEX
  5
52E
  8
0
 10
203.2098436019819
 20
-22.72739184699698
 30
0.0
  0
VERTEX
  5
52F
  8
0
 10
80.0
 20
0.0
 30
0.0
  0
SEQEND
  5
52D
  8
0
  0
LINE
  5
4E1
  8
0
 10
324.0011220794111
 20
16.32773717808907
 30
0.0
 11
326.0849002114143
 21
4.510044141942572
 31
0.0
  0
LINE
  5
4E2
  8
0
 10
80.0
 20
6.0
 30
0.0
 11
80.0
 21
-6.0
 31
0.0
  0
LINE
  5
4E3
  8
0
 10
203.0
 20
6.0
 30
0.0
 11
203.0
 21
-6.0
 31
0.0
  0
LINE
  5
4E4
  8
0
 10
326.0
 20
6.0
 30
0.0
 11
326.0
 21
-6.0
 31
0.0
  0
POLYLINE
  5
4E5
  8
0
 66
     1
 10
0.0
 20
0.0
 30
0.0
 40
9.0
 41
9.0
  0
VERTEX
  5
531
  8
0
 10
740.0
 20
36.00000000000001
 30
0.0
  0
VERTEX
  5
532
  8
0
 10
480.0
 20
36.00000000000001
 30
0.0
  0
SEQEND
  5
530
  8
0
  0
POLYLINE
  5
4E6
  8
0
 66
     1
 10
0.0
 20
0.0
 30
0.0
 40
9.0
 41
9.0
  0
VERTEX
  5
534
  8
0
 10
325.0430111454127
 20
10.41889066001582
 30
0.0
  0
VERTEX
  5
535
  8
0
 10
265.9545459646802
 20
0.0
 30
0.0
  0
SEQEND
  5
533
  8
0
  0
POLYLINE
  5
4E7
  8
0
 66
     1
 10
0.0
 20
0.0
 30
0.0
 40
9.0
 41
9.0
  0
VERTEX
  5
537
  8
0
 10
325.0430111454127
 20
10.41889066001582
 30
0.0
  0
VERTEX
  5
538
  8
0
 10
403.8276313863894
 20
24.31074487337027
 30
0.0
  0
SEQEND
  5
536
  8
0
  0
POLYLINE
  5
4E8
  8
0
 66
     1
 10
0.0
 20
0.0
 30
0.0
 40
9.0
 41
9.0
  0
VERTEX
  5
53A
  8
0
 10
403.8276313863894
 20
24.31074487337027
 30
0.0
  0
VERTEX
  5
53B
  8
0
 10
480.0
 20
36.00000000000001
 30
0.0
  0
SEQEND
  5
539
  8
0
  0
LINE
  5
4E9
  8
0
 10
480.0
 20
42.00000000000001
 30
0.0
 11
480.0
 21
30.00000000000001
 31
0.0
  0
LINE
  5
4EA
  8
0
 10
204.2517326679835
 20
-16.81854532892373
 30
0.0
 11
202.1679545359803
 21
-28.63623836507023
 31
0.0
  0
TEXT
  5
4EB
  8
0
 10
337.7244793200255
 20
95.85454395408775
 30
0.0
 40
50.0
  1
800
  0
TEXT
  5
4EC
  8
0
 10
401.6803875153042
 20
-135.5291498131139
 30
0.0
 40
50.0
  1
NRE-302
  0
TEXT
  5
4ED
  8
0
 62
     2
 10
19.97516961909135
 20
144.0921084915743
 30
0.0
 40
25.0
  1
DL 02/10
  0
LINE
  5
4EE
  8
0
 10
800.0
 20
0.0
 30
0.0
 11
758.4998682539448
 21
200.0
 31
0.0
  0
INSERT
  5
4EF
  8
0
  2
*U17
 10
0.0
 20
0.0
 30
0.0
1001
ACAD
1002
{
1000
R14_HATCH_DATA
1000
4EF
1011
1.0
1021
0.0
1031
0.0
1021
0.0
1031
0.0
1011
0.0
1021
1.0
1031
0.0
1021
1.0
1031
0.0
1011
0.0
1021
0.0
1031
1.0
1021
0.0
1031
1.0
1040
0.0
1010
0.0
1020
0.0
1030
1.0
1020
0.0
1030
1.0
1000
SOLID
1070
     1
1070
     1
1071
        1
1071
        7
1070
     0
1070
     1
1071
        3
1040
800.0
1040
0.0000000000000142
1040
800.0
1040
200.0
1040
758.4998682539448
1040
200.0
1071
        2
1005
4DE
1005
4EE
1070
     0
1070
     1
1040
0.0
1071
        1
1040
0.0
1040
0.0
1040
0.0
1002
}
  0
TEXT
  5
4F0
  8
0
 10
457.5187045824782
 20
-70.1103722949353
 30
0.0
 40
50.0
  1
DiLue
  0
ENDBLK
  5
516
  8
0
  0
BLOCK
  8
0
  2
*U17
 70
     1
 10
0.0
 20
0.0
 30
0.0
  3
*U17
  1

  0
SOLID
  5
53D
  8
0
 10
-800.0
 20
0.0000000000000365
 30
0.0
 11
-758.4998682539448
 21
200.0
 31
0.0
 12
-800.0
 22
200.0
 32
0.0
 13
-800.0
 23
200.0
 33
0.0
210
0.0
220
0.0
230
-1.0
  0
ENDBLK
  5
53F
  8
0
  0
ENDSEC
  0
SECTION
  2
ENTITIES
  0
INSERT
  5
4F2
  8
0
  2
NRE-302
 10
0.0
 20
0.0
 30
0.0
  0
ENDSEC
  0
EOF
