  0
SECTION
  2
HEADER
  9
$ACADVER
  1
AC1009
  9
$DWGCODEPAGE
  3
ansi_1252
  9
$INSBASE
 10
0.0
 20
0.0
 30
0.0
  9
$EXTMIN
 10
-26.10523844400997
 20
-198.2889722747605
 30
0.0
  9
$EXTMAX
 10
390.3157153320299
 20
198.2889722747605
 30
0.0
  9
$LIMMIN
 10
0.0
 20
0.0
  9
$LIMMAX
 10
420.0
 20
297.0
  9
$ORTHOMODE
 70
     0
  9
$REGENMODE
 70
     1
  9
$FILLMODE
 70
     1
  9
$QTEXTMODE
 70
     0
  9
$MIRRTEXT
 70
     0
  9
$DRAGMODE
 70
     2
  9
$LTSCALE
 40
1.0
  9
$OSMODE
 70
    37
  9
$ATTMODE
 70
     1
  9
$TEXTSIZE
 40
2.5
  9
$TRACEWID
 40
1.0
  9
$TEXTSTYLE
  7
STANDARD
  9
$CLAYER
  8
0
  9
$CELTYPE
  6
BYLAYER
  9
$CECOLOR
 62
   256
  9
$DIMSCALE
 40
1.0
  9
$DIMASZ
 40
2.5
  9
$DIMEXO
 40
0.625
  9
$DIMDLI
 40
3.75
  9
$DIMRND
 40
0.0
  9
$DIMDLE
 40
0.0
  9
$DIMEXE
 40
1.25
  9
$DIMTP
 40
0.0
  9
$DIMTM
 40
0.0
  9
$DIMTXT
 40
2.5
  9
$DIMCEN
 40
2.5
  9
$DIMTSZ
 40
0.0
  9
$DIMTOL
 70
     0
  9
$DIMLIM
 70
     0
  9
$DIMTIH
 70
     0
  9
$DIMTOH
 70
     0
  9
$DIMSE1
 70
     0
  9
$DIMSE2
 70
     0
  9
$DIMTAD
 70
     1
  9
$DIMZIN
 70
     8
  9
$DIMBLK
  1

  9
$DIMASO
 70
     1
  9
$DIMSHO
 70
     1
  9
$DIMPOST
  1

  9
$DIMAPOST
  1

  9
$DIMALT
 70
     0
  9
$DIMALTD
 70
     3
  9
$DIMALTF
 40
0.03937007874016
  9
$DIMLFAC
 40
1.0
  9
$DIMTOFL
 70
     1
  9
$DIMTVP
 40
0.0
  9
$DIMTIX
 70
     0
  9
$DIMSOXD
 70
     0
  9
$DIMSAH
 70
     0
  9
$DIMBLK1
  1

  9
$DIMBLK2
  1

  9
$DIMSTYLE
  2
ISO-25
  9
$DIMCLRD
 70
     0
  9
$DIMCLRE
 70
     0
  9
$DIMCLRT
 70
     0
  9
$DIMTFAC
 40
1.0
  9
$DIMGAP
 40
0.625
  9
$LUNITS
 70
     2
  9
$LUPREC
 70
     4
  9
$SKETCHINC
 40
1.0
  9
$FILLETRAD
 40
0.0
  9
$AUNITS
 70
     0
  9
$AUPREC
 70
     0
  9
$MENU
  1
.
  9
$ELEVATION
 40
0.0
  9
$PELEVATION
 40
0.0
  9
$THICKNESS
 40
0.0
  9
$LIMCHECK
 70
     0
  9
$CHAMFERA
 40
0.0
  9
$CHAMFERB
 40
0.0
  9
$SKPOLY
 70
     0
  9
$TDCREATE
 40
2453353.800459155
  9
$TDUPDATE
 40
2456079.12577
  9
$TDINDWG
 40
2440772.066245926
  9
$TDUSRTIMER
 40
2440772.066245926
  9
$USRTIMER
 70
     1
  9
$ANGBASE
 50
0.0
  9
$ANGDIR
 70
     0
  9
$PDMODE
 70
     0
  9
$PDSIZE
 40
0.0
  9
$PLINEWID
 40
0.0
  9
$COORDS
 70
     1
  9
$SPLFRAME
 70
     0
  9
$SPLINETYPE
 70
     6
  9
$SPLINESEGS
 70
     8
  9
$ATTDIA
 70
     0
  9
$ATTREQ
 70
     1
  9
$HANDLING
 70
     1
  9
$HANDSEED
  5
1D2
  9
$SURFTAB1
 70
     6
  9
$SURFTAB2
 70
     6
  9
$SURFTYPE
 70
     6
  9
$SURFU
 70
     6
  9
$SURFV
 70
     6
  9
$UCSNAME
  2

  9
$UCSORG
 10
0.0
 20
0.0
 30
0.0
  9
$UCSXDIR
 10
1.0
 20
0.0
 30
0.0
  9
$UCSYDIR
 10
0.0
 20
1.0
 30
0.0
  9
$PUCSNAME
  2

  9
$PUCSORG
 10
0.0
 20
0.0
 30
0.0
  9
$PUCSXDIR
 10
1.0
 20
0.0
 30
0.0
  9
$PUCSYDIR
 10
0.0
 20
1.0
 30
0.0
  9
$USERI1
 70
     0
  9
$USERI2
 70
     0
  9
$USERI3
 70
     0
  9
$USERI4
 70
     0
  9
$USERI5
 70
     0
  9
$USERR1
 40
0.0
  9
$USERR2
 40
0.0
  9
$USERR3
 40
0.0
  9
$USERR4
 40
0.0
  9
$USERR5
 40
0.0
  9
$WORLDVIEW
 70
     1
  9
$SHADEDGE
 70
     3
  9
$SHADEDIF
 70
    70
  9
$TILEMODE
 70
     1
  9
$MAXACTVP
 70
    64
  9
$PLIMCHECK
 70
     0
  9
$PEXTMIN
 10
1.000000000000000E+20
 20
1.000000000000000E+20
 30
1.000000000000000E+20
  9
$PEXTMAX
 10
-1.000000000000000E+20
 20
-1.000000000000000E+20
 30
-1.000000000000000E+20
  9
$PLIMMIN
 10
0.0
 20
0.0
  9
$PLIMMAX
 10
420.0
 20
297.0
  9
$UNITMODE
 70
     0
  9
$VISRETAIN
 70
     1
  9
$PLINEGEN
 70
     0
  9
$PSLTSCALE
 70
     1
  0
ENDSEC
  0
SECTION
  2
TABLES
  0
TABLE
  2
VPORT
 70
     1
  0
VPORT
  2
*ACTIVE
 70
     0
 10
0.0
 20
0.0
 11
1.0
 21
1.0
 12
203.862083531235
 22
-27.12967657284419
 13
0.0
 23
0.0
 14
10.0
 24
10.0
 15
10.0
 25
10.0
 16
0.0
 26
0.0
 36
1.0
 17
0.0
 27
0.0
 37
0.0
 40
970.4726958066622
 41
1.664827586206897
 42
50.0
 43
0.0
 44
0.0
 50
0.0
 51
0.0
 71
    16
 72
  1000
 73
     1
 74
     3
 75
     0
 76
     0
 77
     0
 78
     0
  0
ENDTAB
  0
TABLE
  2
LTYPE
 70
     1
  0
LTYPE
  2
CONTINUOUS
 70
     0
  3
Solid line
 72
    65
 73
     0
 40
0.0
  0
ENDTAB
  0
TABLE
  2
LAYER
 70
     1
  0
LAYER
  2
0
 70
     0
 62
     7
  6
CONTINUOUS
  0
ENDTAB
  0
TABLE
  2
STYLE
 70
     1
  0
STYLE
  2
STANDARD
 70
     0
 40
0.0
 41
1.0
 50
0.0
 71
     0
 42
2.5
  3
txt
  4

  0
ENDTAB
  0
TABLE
  2
VIEW
 70
     0
  0
ENDTAB
  0
TABLE
  2
UCS
 70
     0
  0
ENDTAB
  0
TABLE
  2
APPID
 70
     2
  0
APPID
  2
ACAD
 70
     0
  0
APPID
  2
ACAECLAYERSTANDARD
 70
     0
  0
ENDTAB
  0
TABLE
  2
DIMSTYLE
 70
     2
  0
DIMSTYLE
  2
STANDARD
 70
     0
  3

  4

  5

  6

  7

 40
1.0
 41
0.18
 42
0.0625
 43
0.38
 44
0.18
 45
0.0
 46
0.0
 47
0.0
 48
0.0
140
0.18
141
0.09
142
0.0
143
25.4
144
1.0
145
0.0
146
1.0
147
0.09
 71
     0
 72
     0
 73
     1
 74
     1
 75
     0
 76
     0
 77
     0
 78
     0
170
     0
171
     2
172
     0
173
     0
174
     0
175
     0
176
     0
177
     0
178
     0
  0
DIMSTYLE
  2
ISO-25
 70
     0
  3

  4

  5

  6

  7

 40
1.0
 41
2.5
 42
0.625
 43
3.75
 44
1.25
 45
0.0
 46
0.0
 47
0.0
 48
0.0
140
2.5
141
2.5
142
0.0
143
0.03937007874016
144
1.0
145
0.0
146
1.0
147
0.625
 71
     0
 72
     0
 73
     0
 74
     0
 75
     0
 76
     0
 77
     1
 78
     8
170
     0
171
     3
172
     1
173
     0
174
     0
175
     0
176
     0
177
     0
178
     0
  0
ENDTAB
  0
ENDSEC
  0
SECTION
  2
BLOCKS
  0
BLOCK
  8
0
  2
$MODEL_SPACE
 70
     0
 10
0.0
 20
0.0
 30
0.0
  3
$MODEL_SPACE
  1

  0
ENDBLK
  5
21
  8
0
  0
BLOCK
 67
     1
  8
0
  2
$PAPER_SPACE
 70
     0
 10
0.0
 20
0.0
 30
0.0
  3
$PAPER_SPACE
  1

  0
ENDBLK
  5
76
 67
     1
  8
0
  0
BLOCK
  8
0
  2
NRE-301
 70
     0
 10
0.0
 20
0.0
 30
0.0
  3
NRE-301
  1

  0
POLYLINE
  5
1A4
  8
0
 66
     1
 10
0.0
 20
0.0
 30
0.0
 40
9.0
 41
9.0
  0
VERTEX
  5
1CA
  8
0
 10
364.0833091951919
 20
-0.9751622437042045
 30
0.0
 42
0.0653150390299296
  0
VERTEX
  5
1CB
  8
0
 10
-0.1271676928279959
 20
-0.9751622437042045
 30
0.0
 42
15.31040959099434
  0
SEQEND
  5
1C9
  8
0
  0
TEXT
  5
1A5
  8
0
 10
38.91141514620161
 20
133.7660540744837
 30
0.0
 40
50.0
  1
416, 15°
  0
TEXT
  5
1A6
  8
0
 10
64.65924014781022
 20
-135.2482834221055
 30
0.0
 40
40.0
  1
NRE-301
  0
LINE
  5
1A7
  8
0
 10
176.195993305406
 20
-8.421166932705916
 30
0.0
 11
176.195993305406
 21
-32.60648610772196
 31
0.0
  0
LINE
  5
1A8
  8
0
 10
180.0227843141112
 20
-0.9938647314601496
 30
0.0
 11
171.3709089900805
 21
-17.13293985513238
 31
0.0
  0
LINE
  5
1A9
  8
0
 10
180.5219309674196
 20
-16.30102876628453
 30
0.0
 11
172.2028200789302
 21
-0.827482513691308
 31
0.0
  0
LINE
  5
1AA
  8
0
 10
133.4357633385664
 20
-16.63379320182222
 30
0.0
 11
125.1166524500751
 21
-1.160246949232629
 31
0.0
  0
LINE
  5
1AB
  8
0
 10
132.9366166852562
 20
-1.326629167001471
 30
0.0
 11
124.2847413612273
 21
-17.46570429067006
 31
0.0
  0
LINE
  5
1AC
  8
0
 10
129.109825676551
 20
-8.753931368243599
 30
0.0
 11
129.109825676551
 21
-32.93925054326328
 31
0.0
  0
LINE
  5
1AD
  8
0
 10
126.4341279703751
 20
36.40478315663412
 30
0.0
 11
134.7532388588663
 21
20.9312369040409
 31
0.0
  0
LINE
  5
1AE
  8
0
 10
126.9332746236852
 20
21.09761912180974
 30
0.0
 11
135.5851499477159
 21
37.23669424548197
 31
0.0
  0
LINE
  5
1AF
  8
0
 10
130.7600656323904
 20
28.52492132305551
 30
0.0
 11
130.7600656323904
 21
52.71024049807156
 31
0.0
  0
LINE
  5
1B0
  8
0
 10
180.3351754168618
 20
29.2040324159926
 30
0.0
 11
180.3351754168618
 21
53.38935159101229
 31
0.0
  0
LINE
  5
1B1
  8
0
 10
176.0092377548482
 20
37.08389424957122
 30
0.0
 11
184.3283486433376
 21
21.61034799697799
 31
0.0
  0
LINE
  5
1B2
  8
0
 10
176.5083844081566
 20
21.77673021475047
 30
0.0
 11
185.1602597321873
 21
37.91580533841906
 31
0.0
  0
TEXT
  5
1B3
  8
0
 62
     2
 10
95.70677700313394
 20
-185.1945500776104
 30
0.0
 40
25.0
  1
DL01/09
  0
TEXT
  5
1B4
  8
0
 10
120.9331500238143
 20
83.16175622559237
 30
0.0
 40
20.0
  1
R1400
  0
POLYLINE
  5
1B5
  8
0
 66
     1
 10
0.0
 20
0.0
 30
0.0
  0
VERTEX
  5
1CD
  8
0
 10
26.10523844400997
 20
-198.2889722747605
 30
0.0
  0
VERTEX
  5
1CE
  8
0
 10
-26.10523844400997
 20
198.2889722747605
 30
0.0
  0
VERTEX
  5
1CF
  8
0
 10
390.3157153320299
 20
198.2889722747605
 30
0.0
  0
VERTEX
  5
1D0
  8
0
 10
338.10523844401
 20
-198.2889722747605
 30
0.0
  0
VERTEX
  5
1D1
  8
0
 10
26.10523844400997
 20
-198.2889722747605
 30
0.0
  0
SEQEND
  5
1CC
  8
0
  0
TEXT
  5
1B6
  8
0
 10
92.84724376045189
 20
-77.26153313324265
 30
0.0
 40
40.0
  1
DiLue
  0
ENDBLK
  5
1BF
  8
0
  0
ENDSEC
  0
SECTION
  2
ENTITIES
  0
INSERT
  5
1B8
  8
0
  2
NRE-301
 10
0.0
 20
0.0
 30
0.0
  0
ENDSEC
  0
EOF
